ISO-10303-21;
HEADER;
FILE_DESCRIPTION (( 'STEP AP203' ),
    '1' );
FILE_NAME ('QM-CAHWP-20-550-750-M.STEP',
    '2021-01-05T02:35:33',
    ( '' ),
    ( '' ),
    'SwSTEP 2.0',
    'SolidWorks 2020',
    '' );
FILE_SCHEMA (( 'CONFIG_CONTROL_DESIGN' ));
ENDSEC;

DATA;
#1 = DIRECTION ( 'NONE',  ( -1.000000000000000000, -0.000000000000000000, -0.000000000000000000 ) ) ;
#2 = FACE_OUTER_BOUND ( 'NONE', #283, .T. ) ;
#3 = CC_DESIGN_PERSON_AND_ORGANIZATION_ASSIGNMENT ( #217, #220, ( #137 ) ) ;
#4 = EDGE_CURVE ( 'NONE', #249, #222, #160, .T. ) ;
#5 = PERSON_AND_ORGANIZATION_ROLE ( 'creator' ) ;
#6 = VERTEX_POINT ( 'NONE', #129 ) ;
#7 = UNCERTAINTY_MEASURE_WITH_UNIT (LENGTH_MEASURE( 1.000000000000000082E-05 ), #265, 'distance_accuracy_value', 'NONE');
#8 = ORIENTED_EDGE ( 'NONE', *, *, #246, .F. ) ;
#9 = VECTOR ( 'NONE', #107, 1000.000000000000000 ) ;
#10 = LINE ( 'NONE', #117, #145 ) ;
#11 = APPROVAL ( #315, 'UNSPECIFIED' ) ;
#12 = ORIENTED_EDGE ( 'NONE', *, *, #111, .T. ) ;
#13 = DIRECTION ( 'NONE',  ( -1.000000000000000000, -0.000000000000000000, -0.000000000000000000 ) ) ;
#14 = EDGE_LOOP ( 'NONE', ( #209, #178, #148, #41 ) ) ;
#15 = AXIS2_PLACEMENT_3D ( 'NONE', #323, #295, #149 ) ;
#16 = DIRECTION ( 'NONE',  ( 0.000000000000000000, 0.000000000000000000, -1.000000000000000000 ) ) ;
#17 = ORIENTED_EDGE ( 'NONE', *, *, #191, .T. ) ;
#18 = PLANE ( 'NONE',  #163 ) ;
#19 = CARTESIAN_POINT ( 'NONE',  ( -1.614212418857619014, 1.224646799147353256E-15, -10.00000000000000000 ) ) ;
#20 = FACE_BOUND ( 'NONE', #144, .T. ) ;
#21 = ORIENTED_EDGE ( 'NONE', *, *, #133, .F. ) ;
#22 = DIRECTION ( 'NONE',  ( 0.000000000000000000, 0.000000000000000000, 1.000000000000000000 ) ) ;
#23 = ADVANCED_FACE ( 'NONE', ( #181, #158 ), #264, .F. ) ;
#24 = DIRECTION ( 'NONE',  ( 0.000000000000000000, 0.000000000000000000, 1.000000000000000000 ) ) ;
#25 = CYLINDRICAL_SURFACE ( 'NONE', #201, 10.00000000000000000 ) ;
#26 = VERTEX_POINT ( 'NONE', #127 ) ;
#27 = AXIS2_PLACEMENT_3D ( 'NONE', #307, #49, #64 ) ;
#28 = VECTOR ( 'NONE', #47, 1000.000000000000000 ) ;
#29 = CLOSED_SHELL ( 'NONE', ( #213, #298, #219, #227, #316, #165, #23, #286, #192, #238 ) ) ;
#30 = APPROVAL_DATE_TIME ( #267, #11 ) ;
#31 = ORIENTED_EDGE ( 'NONE', *, *, #294, .T. ) ;
#32 = PERSON_AND_ORGANIZATION ( #135, #114 ) ;
#33 = AXIS2_PLACEMENT_3D ( 'NONE', #203, #228, #173 ) ;
#34 = VERTEX_POINT ( 'NONE', #281 ) ;
#35 = APPROVAL_ROLE ( '' ) ;
#36 = DIRECTION ( 'NONE',  ( 0.000000000000000000, 0.000000000000000000, 1.000000000000000000 ) ) ;
#37 = EDGE_CURVE ( 'NONE', #142, #34, #131, .T. ) ;
#38 = APPLICATION_CONTEXT ( 'configuration controlled 3d designs of mechanical parts and assemblies' ) ;
#39 = ORIENTED_EDGE ( 'NONE', *, *, #294, .F. ) ;
#40 = FACE_OUTER_BOUND ( 'NONE', #171, .T. ) ;
#41 = ORIENTED_EDGE ( 'NONE', *, *, #37, .F. ) ;
#42 = CARTESIAN_POINT ( 'NONE',  ( -0.5000000000000006661, 0.000000000000000000, 0.000000000000000000 ) ) ;
#43 = EDGE_CURVE ( 'NONE', #68, #56, #124, .T. ) ;
#44 = CARTESIAN_POINT ( 'NONE',  ( -1.614212418857619014, 0.000000000000000000, 0.000000000000000000 ) ) ;
#45 = ORIENTED_EDGE ( 'NONE', *, *, #126, .T. ) ;
#46 = CARTESIAN_POINT ( 'NONE',  ( -3.000000000000000000, 1.224646799147353256E-15, -10.00000000000000000 ) ) ;
#47 = DIRECTION ( 'NONE',  ( -1.000000000000000000, -0.000000000000000000, -0.000000000000000000 ) ) ;
#48 = APPLICATION_PROTOCOL_DEFINITION ( 'international standard', 'config_control_design', 1994, #260 ) ;
#49 = DIRECTION ( 'NONE',  ( -1.000000000000000000, -0.000000000000000000, -0.000000000000000000 ) ) ;
#50 = CYLINDRICAL_SURFACE ( 'NONE', #225, 10.00000000000000000 ) ;
#51 = VERTEX_POINT ( 'NONE', #73 ) ;
#52 = DIRECTION ( 'NONE',  ( -1.000000000000000000, -0.000000000000000000, -0.000000000000000000 ) ) ;
#53 = EDGE_CURVE ( 'NONE', #68, #26, #139, .T. ) ;
#54 = CALENDAR_DATE ( 2021, 5, 1 ) ;
#55 = SHAPE_DEFINITION_REPRESENTATION ( #132, #257 ) ;
#56 = VERTEX_POINT ( 'NONE', #233 ) ;
#57 = CARTESIAN_POINT ( 'NONE',  ( 0.5000000000000013323, 0.000000000000000000, 0.000000000000000000 ) ) ;
#58 = AXIS2_PLACEMENT_3D ( 'NONE', #44, #206, #147 ) ;
#59 = VERTEX_POINT ( 'NONE', #210 ) ;
#60 = COORDINATED_UNIVERSAL_TIME_OFFSET ( 8, 0, .AHEAD. ) ;
#61 = APPROVAL ( #90, 'UNSPECIFIED' ) ;
#62 = AXIS2_PLACEMENT_3D ( 'NONE', #120, #155, #327 ) ;
#63 = CC_DESIGN_SECURITY_CLASSIFICATION ( #325, ( #313 ) ) ;
#64 = DIRECTION ( 'NONE',  ( 0.000000000000000000, 0.000000000000000000, 1.000000000000000000 ) ) ;
#65 = AXIS2_PLACEMENT_3D ( 'NONE', #57, #13, #36 ) ;
#66 = PLANE ( 'NONE',  #82 ) ;
#67 = EDGE_CURVE ( 'NONE', #51, #59, #122, .T. ) ;
#68 = VERTEX_POINT ( 'NONE', #235 ) ;
#69 = LINE ( 'NONE', #199, #77 ) ;
#70 = CIRCLE ( 'NONE', #310, 10.00000000000000000 ) ;
#71 = CARTESIAN_POINT ( 'NONE',  ( 2.999999999999999112, 1.224646799147353256E-15, -10.00000000000000000 ) ) ;
#72 = CARTESIAN_POINT ( 'NONE',  ( 3.000000000000000000, 0.000000000000000000, 0.000000000000000000 ) ) ;
#73 = CARTESIAN_POINT ( 'NONE',  ( -3.000000000000000000, 1.555301434917138433E-15, -12.69999999999999929 ) ) ;
#74 = CC_DESIGN_DATE_AND_TIME_ASSIGNMENT ( #215, #168, ( #137 ) ) ;
#75 = CARTESIAN_POINT ( 'NONE',  ( 0.000000000000000000, 0.000000000000000000, 0.000000000000000000 ) ) ;
#76 = DIRECTION ( 'NONE',  ( 1.000000000000000000, 0.000000000000000000, 0.000000000000000000 ) ) ;
#77 = VECTOR ( 'NONE', #118, 1000.000000000000000 ) ;
#78 = FACE_OUTER_BOUND ( 'NONE', #96, .T. ) ;
#79 = AXIS2_PLACEMENT_3D ( 'NONE', #207, #335, #183 ) ;
#80 = APPROVAL_PERSON_ORGANIZATION ( #103, #109, #159 ) ;
#81 = CC_DESIGN_PERSON_AND_ORGANIZATION_ASSIGNMENT ( #211, #189, ( #105 ) ) ;
#82 = AXIS2_PLACEMENT_3D ( 'NONE', #204, #179, #223 ) ;
#83 =( GEOMETRIC_REPRESENTATION_CONTEXT ( 3 ) GLOBAL_UNCERTAINTY_ASSIGNED_CONTEXT ( ( #7 ) ) GLOBAL_UNIT_ASSIGNED_CONTEXT ( ( #265, #287, #130 ) ) REPRESENTATION_CONTEXT ( 'NONE', 'WORKASPACE' ) );
#84 = APPROVAL_PERSON_ORGANIZATION ( #297, #11, #245 ) ;
#85 = COORDINATED_UNIVERSAL_TIME_OFFSET ( 8, 0, .AHEAD. ) ;
#86 = EDGE_CURVE ( 'NONE', #6, #273, #309, .T. ) ;
#87 = EDGE_LOOP ( 'NONE', ( #224, #31, #259, #104 ) ) ;
#88 = FACE_OUTER_BOUND ( 'NONE', #302, .T. ) ;
#89 = ORIENTED_EDGE ( 'NONE', *, *, #67, .F. ) ;
#90 = APPROVAL_STATUS ( 'not_yet_approved' ) ;
#91 = CARTESIAN_POINT ( 'NONE',  ( -3.000000000000000000, 0.000000000000000000, 0.000000000000000000 ) ) ;
#92 = ORIENTED_EDGE ( 'NONE', *, *, #252, .T. ) ;
#93 = CC_DESIGN_APPROVAL ( #61, ( #325 ) ) ;
#94 = DIRECTION ( 'NONE',  ( 0.000000000000000000, 0.000000000000000000, 1.000000000000000000 ) ) ;
#95 = DIRECTION ( 'NONE',  ( -1.000000000000000000, -0.000000000000000000, -0.000000000000000000 ) ) ;
#96 = EDGE_LOOP ( 'NONE', ( #205, #151, #216, #326 ) ) ;
#97 = DIRECTION ( 'NONE',  ( 0.000000000000000000, 0.000000000000000000, -1.000000000000000000 ) ) ;
#98 = AXIS2_PLACEMENT_3D ( 'NONE', #91, #95, #146 ) ;
#99 = CARTESIAN_POINT ( 'NONE',  ( -1.614212418857619014, 0.000000000000000000, 10.00000000000000000 ) ) ;
#100 = DIRECTION ( 'NONE',  ( 0.000000000000000000, 0.000000000000000000, 1.000000000000000000 ) ) ;
#101 = AXIS2_PLACEMENT_3D ( 'NONE', #42, #305, #16 ) ;
#102 = DIRECTION ( 'NONE',  ( -1.000000000000000000, -0.000000000000000000, -0.000000000000000000 ) ) ;
#103 = PERSON_AND_ORGANIZATION ( #135, #114 ) ;
#104 = ORIENTED_EDGE ( 'NONE', *, *, #268, .F. ) ;
#105 = PRODUCT ( 'QM-CAHWP-20-550-750-M', 'QM-CAHWP-20-550-750-M', '', ( #108 ) ) ;
#106 = CC_DESIGN_PERSON_AND_ORGANIZATION_ASSIGNMENT ( #141, #170, ( #313 ) ) ;
#107 = DIRECTION ( 'NONE',  ( -1.000000000000000000, -0.000000000000000000, -0.000000000000000000 ) ) ;
#108 = MECHANICAL_CONTEXT ( 'NONE', #38, 'mechanical' ) ;
#109 = APPROVAL ( #282, 'UNSPECIFIED' ) ;
#110 = CC_DESIGN_APPROVAL ( #109, ( #137 ) ) ;
#111 = EDGE_CURVE ( 'NONE', #142, #249, #214, .T. ) ;
#112 = AXIS2_PLACEMENT_3D ( 'NONE', #231, #76, #256 ) ;
#113 = DATE_TIME_ROLE ( 'classification_date' ) ;
#114 = ORGANIZATION ( 'UNSPECIFIED', 'UNSPECIFIED', '' ) ;
#115 = ORIENTED_EDGE ( 'NONE', *, *, #198, .T. ) ;
#116 = APPROVAL_DATE_TIME ( #143, #61 ) ;
#117 = CARTESIAN_POINT ( 'NONE',  ( -1.614212418857619014, 0.000000000000000000, 12.69999999999999929 ) ) ;
#118 = DIRECTION ( 'NONE',  ( -1.000000000000000000, -0.000000000000000000, -0.000000000000000000 ) ) ;
#119 = ORIENTED_EDGE ( 'NONE', *, *, #268, .T. ) ;
#120 = CARTESIAN_POINT ( 'NONE',  ( -3.000000000000000000, 0.000000000000000000, 0.000000000000000000 ) ) ;
#121 = ORIENTED_EDGE ( 'NONE', *, *, #198, .F. ) ;
#122 = CIRCLE ( 'NONE', #169, 12.69999999999999929 ) ;
#123 = CYLINDRICAL_SURFACE ( 'NONE', #312, 12.69999999999999929 ) ;
#124 = LINE ( 'NONE', #99, #241 ) ;
#125 = CARTESIAN_POINT ( 'NONE',  ( 2.999999999999999112, 0.000000000000000000, 10.00000000000000000 ) ) ;
#126 = EDGE_CURVE ( 'NONE', #249, #142, #289, .T. ) ;
#127 = CARTESIAN_POINT ( 'NONE',  ( -0.5000000000000006661, 1.224646799147353256E-15, -10.00000000000000000 ) ) ;
#128 = CARTESIAN_POINT ( 'NONE',  ( -1.614212418857619014, 1.555301434917138433E-15, -12.69999999999999929 ) ) ;
#129 = CARTESIAN_POINT ( 'NONE',  ( 3.000000000000000000, 0.000000000000000000, 12.69999999999999929 ) ) ;
#130 =( NAMED_UNIT ( * ) SI_UNIT ( $, .STERADIAN. ) SOLID_ANGLE_UNIT ( ) );
#131 = LINE ( 'NONE', #331, #28 ) ;
#132 = PRODUCT_DEFINITION_SHAPE ( 'NONE', 'NONE',  #137 ) ;
#133 = EDGE_CURVE ( 'NONE', #222, #34, #70, .T. ) ;
#134 = APPLICATION_PROTOCOL_DEFINITION ( 'international standard', 'config_control_design', 1994, #38 ) ;
#135 = PERSON ( 'UNSPECIFIED', 'UNSPECIFIED', 'UNSPECIFIED', ('UNSPECIFIED'), ('UNSPECIFIED'), ('UNSPECIFIED') ) ;
#136 = CC_DESIGN_PERSON_AND_ORGANIZATION_ASSIGNMENT ( #172, #194, ( #325 ) ) ;
#137 = PRODUCT_DEFINITION ( 'UNKNOWN', '', #313, #218 ) ;
#138 = MANIFOLD_SOLID_BREP ( 'Ðý×', #29 ) ;
#139 = CIRCLE ( 'NONE', #79, 10.00000000000000000 ) ;
#140 = EDGE_CURVE ( 'NONE', #251, #56, #166, .T. ) ;
#141 = PERSON_AND_ORGANIZATION ( #135, #114 ) ;
#142 = VERTEX_POINT ( 'NONE', #125 ) ;
#143 = DATE_AND_TIME ( #292, #300 ) ;
#144 = EDGE_LOOP ( 'NONE', ( #12, #45 ) ) ;
#145 = VECTOR ( 'NONE', #321, 1000.000000000000000 ) ;
#146 = DIRECTION ( 'NONE',  ( 0.000000000000000000, 0.000000000000000000, 1.000000000000000000 ) ) ;
#147 = DIRECTION ( 'NONE',  ( 0.000000000000000000, 0.000000000000000000, 1.000000000000000000 ) ) ;
#148 = ORIENTED_EDGE ( 'NONE', *, *, #133, .T. ) ;
#149 = DIRECTION ( 'NONE',  ( -0.000000000000000000, 0.000000000000000000, 1.000000000000000000 ) ) ;
#150 = AXIS2_PLACEMENT_3D ( 'NONE', #72, #1, #333 ) ;
#151 = ORIENTED_EDGE ( 'NONE', *, *, #111, .F. ) ;
#152 = CARTESIAN_POINT ( 'NONE',  ( 0.5000000000000013323, 1.224646799147353256E-15, -10.00000000000000000 ) ) ;
#153 = ORIENTED_EDGE ( 'NONE', *, *, #67, .T. ) ;
#154 = EDGE_CURVE ( 'NONE', #273, #6, #190, .T. ) ;
#155 = DIRECTION ( 'NONE',  ( -1.000000000000000000, -0.000000000000000000, -0.000000000000000000 ) ) ;
#156 = DIRECTION ( 'NONE',  ( -1.000000000000000000, -0.000000000000000000, -0.000000000000000000 ) ) ;
#157 = PRODUCT_RELATED_PRODUCT_CATEGORY ( 'detail', '', ( #105 ) ) ;
#158 = FACE_OUTER_BOUND ( 'NONE', #328, .T. ) ;
#159 = APPROVAL_ROLE ( '' ) ;
#160 = LINE ( 'NONE', #19, #9 ) ;
#161 = CARTESIAN_POINT ( 'NONE',  ( -1.614212418857619014, 0.000000000000000000, 0.000000000000000000 ) ) ;
#162 = LINE ( 'NONE', #128, #167 ) ;
#163 = AXIS2_PLACEMENT_3D ( 'NONE', #258, #230, #97 ) ;
#164 = AXIS2_PLACEMENT_3D ( 'NONE', #75, #186, #285 ) ;
#165 = ADVANCED_FACE ( 'NONE', ( #253 ), #248, .F. ) ;
#166 = CIRCLE ( 'NONE', #98, 10.00000000000000000 ) ;
#167 = VECTOR ( 'NONE', #332, 1000.000000000000000 ) ;
#168 = DATE_TIME_ROLE ( 'creation_date' ) ;
#169 = AXIS2_PLACEMENT_3D ( 'NONE', #308, #156, #24 ) ;
#170 = PERSON_AND_ORGANIZATION_ROLE ( 'design_supplier' ) ;
#171 = EDGE_LOOP ( 'NONE', ( #174, #21 ) ) ;
#172 = PERSON_AND_ORGANIZATION ( #135, #114 ) ;
#173 = DIRECTION ( 'NONE',  ( 0.000000000000000000, 0.000000000000000000, 1.000000000000000000 ) ) ;
#174 = ORIENTED_EDGE ( 'NONE', *, *, #266, .F. ) ;
#175 = DATE_AND_TIME ( #54, #202 ) ;
#176 = DIRECTION ( 'NONE',  ( 0.000000000000000000, 0.000000000000000000, 1.000000000000000000 ) ) ;
#177 = CC_DESIGN_PERSON_AND_ORGANIZATION_ASSIGNMENT ( #271, #5, ( #313 ) ) ;
#178 = ORIENTED_EDGE ( 'NONE', *, *, #4, .T. ) ;
#179 = DIRECTION ( 'NONE',  ( -1.000000000000000000, 0.000000000000000000, -0.000000000000000000 ) ) ;
#180 = DIRECTION ( 'NONE',  ( -1.000000000000000000, -0.000000000000000000, -0.000000000000000000 ) ) ;
#181 = FACE_BOUND ( 'NONE', #197, .T. ) ;
#182 = CARTESIAN_POINT ( 'NONE',  ( 0.5000000000000013323, 0.000000000000000000, 0.000000000000000000 ) ) ;
#183 = DIRECTION ( 'NONE',  ( 0.000000000000000000, 0.000000000000000000, -1.000000000000000000 ) ) ;
#184 = DIRECTION ( 'NONE',  ( 0.000000000000000000, 0.000000000000000000, 1.000000000000000000 ) ) ;
#185 = ORIENTED_EDGE ( 'NONE', *, *, #246, .T. ) ;
#186 = DIRECTION ( 'NONE',  ( 0.000000000000000000, 0.000000000000000000, 1.000000000000000000 ) ) ;
#187 = ORIENTED_EDGE ( 'NONE', *, *, #154, .F. ) ;
#188 = FACE_OUTER_BOUND ( 'NONE', #322, .T. ) ;
#189 = PERSON_AND_ORGANIZATION_ROLE ( 'design_owner' ) ;
#190 = CIRCLE ( 'NONE', #33, 12.69999999999999929 ) ;
#191 = EDGE_CURVE ( 'NONE', #26, #251, #69, .T. ) ;
#192 = ADVANCED_FACE ( 'NONE', ( #88, #20 ), #66, .F. ) ;
#193 = APPROVAL_PERSON_ORGANIZATION ( #32, #61, #35 ) ;
#194 = PERSON_AND_ORGANIZATION_ROLE ( 'classification_officer' ) ;
#195 = COORDINATED_UNIVERSAL_TIME_OFFSET ( 8, 0, .AHEAD. ) ;
#196 = DIRECTION ( 'NONE',  ( 0.000000000000000000, 0.000000000000000000, 1.000000000000000000 ) ) ;
#197 = EDGE_LOOP ( 'NONE', ( #121, #304 ) ) ;
#198 = EDGE_CURVE ( 'NONE', #56, #251, #314, .T. ) ;
#199 = CARTESIAN_POINT ( 'NONE',  ( -1.614212418857619014, 1.224646799147353256E-15, -10.00000000000000000 ) ) ;
#200 = EDGE_LOOP ( 'NONE', ( #278, #185, #293, #115 ) ) ;
#201 = AXIS2_PLACEMENT_3D ( 'NONE', #334, #234, #100 ) ;
#202 = LOCAL_TIME ( 10, 35, 33.00000000000000000, #263 ) ;
#203 = CARTESIAN_POINT ( 'NONE',  ( 3.000000000000000000, 0.000000000000000000, 0.000000000000000000 ) ) ;
#204 = CARTESIAN_POINT ( 'NONE',  ( 2.999999999999999556, 12.69999999999999929, 0.000000000000000000 ) ) ;
#205 = ORIENTED_EDGE ( 'NONE', *, *, #4, .F. ) ;
#206 = DIRECTION ( 'NONE',  ( -1.000000000000000000, -0.000000000000000000, -0.000000000000000000 ) ) ;
#207 = CARTESIAN_POINT ( 'NONE',  ( -0.5000000000000006661, 0.000000000000000000, 0.000000000000000000 ) ) ;
#208 = CIRCLE ( 'NONE', #65, 10.00000000000000000 ) ;
#209 = ORIENTED_EDGE ( 'NONE', *, *, #126, .F. ) ;
#210 = CARTESIAN_POINT ( 'NONE',  ( -3.000000000000000000, 0.000000000000000000, 12.69999999999999929 ) ) ;
#211 = PERSON_AND_ORGANIZATION ( #135, #114 ) ;
#212 = AXIS2_PLACEMENT_3D ( 'NONE', #329, #250, #303 ) ;
#213 = ADVANCED_FACE ( 'NONE', ( #274 ), #123, .T. ) ;
#214 = CIRCLE ( 'NONE', #330, 10.00000000000000000 ) ;
#215 = DATE_AND_TIME ( #320, #240 ) ;
#216 = ORIENTED_EDGE ( 'NONE', *, *, #37, .T. ) ;
#217 = PERSON_AND_ORGANIZATION ( #135, #114 ) ;
#218 = DESIGN_CONTEXT ( 'detailed design', #260, 'design' ) ;
#219 = ADVANCED_FACE ( 'NONE', ( #276 ), #277, .F. ) ;
#220 = PERSON_AND_ORGANIZATION_ROLE ( 'creator' ) ;
#221 = PLANE ( 'NONE',  #15 ) ;
#222 = VERTEX_POINT ( 'NONE', #152 ) ;
#223 = DIRECTION ( 'NONE',  ( -0.000000000000000000, 0.000000000000000000, 1.000000000000000000 ) ) ;
#224 = ORIENTED_EDGE ( 'NONE', *, *, #86, .T. ) ;
#225 = AXIS2_PLACEMENT_3D ( 'NONE', #161, #52, #22 ) ;
#226 = LOCAL_TIME ( 10, 35, 33.00000000000000000, #60 ) ;
#227 = ADVANCED_FACE ( 'NONE', ( #40 ), #221, .F. ) ;
#228 = DIRECTION ( 'NONE',  ( -1.000000000000000000, -0.000000000000000000, -0.000000000000000000 ) ) ;
#229 = ORIENTED_EDGE ( 'NONE', *, *, #140, .T. ) ;
#230 = DIRECTION ( 'NONE',  ( 1.000000000000000000, 0.000000000000000000, 0.000000000000000000 ) ) ;
#231 = CARTESIAN_POINT ( 'NONE',  ( -3.000000000000000000, 10.00000000000000000, 0.000000000000000000 ) ) ;
#232 = DIRECTION ( 'NONE',  ( -1.000000000000000000, -0.000000000000000000, -0.000000000000000000 ) ) ;
#233 = CARTESIAN_POINT ( 'NONE',  ( -3.000000000000000000, 0.000000000000000000, 10.00000000000000000 ) ) ;
#234 = DIRECTION ( 'NONE',  ( -1.000000000000000000, -0.000000000000000000, -0.000000000000000000 ) ) ;
#235 = CARTESIAN_POINT ( 'NONE',  ( -0.5000000000000006661, 0.000000000000000000, 10.00000000000000000 ) ) ;
#236 = CYLINDRICAL_SURFACE ( 'NONE', #324, 12.69999999999999929 ) ;
#237 = AXIS2_PLACEMENT_3D ( 'NONE', #301, #319, #176 ) ;
#238 = ADVANCED_FACE ( 'NONE', ( #255 ), #18, .F. ) ;
#239 = CIRCLE ( 'NONE', #101, 10.00000000000000000 ) ;
#240 = LOCAL_TIME ( 10, 35, 33.00000000000000000, #317 ) ;
#241 = VECTOR ( 'NONE', #232, 1000.000000000000000 ) ;
#242 = DATE_AND_TIME ( #243, #226 ) ;
#243 = CALENDAR_DATE ( 2021, 5, 1 ) ;
#244 = EDGE_LOOP ( 'NONE', ( #280, #8 ) ) ;
#245 = APPROVAL_ROLE ( '' ) ;
#246 = EDGE_CURVE ( 'NONE', #26, #68, #239, .T. ) ;
#247 = CALENDAR_DATE ( 2021, 5, 1 ) ;
#248 = CYLINDRICAL_SURFACE ( 'NONE', #237, 10.00000000000000000 ) ;
#249 = VERTEX_POINT ( 'NONE', #71 ) ;
#250 = DIRECTION ( 'NONE',  ( -1.000000000000000000, -0.000000000000000000, -0.000000000000000000 ) ) ;
#251 = VERTEX_POINT ( 'NONE', #46 ) ;
#252 = EDGE_CURVE ( 'NONE', #59, #51, #288, .T. ) ;
#253 = FACE_OUTER_BOUND ( 'NONE', #200, .T. ) ;
#254 = CC_DESIGN_DATE_AND_TIME_ASSIGNMENT ( #242, #113, ( #325 ) ) ;
#255 = FACE_OUTER_BOUND ( 'NONE', #244, .T. ) ;
#256 = DIRECTION ( 'NONE',  ( 0.000000000000000000, 0.000000000000000000, -1.000000000000000000 ) ) ;
#257 = ADVANCED_BREP_SHAPE_REPRESENTATION ( 'QM-CAHWP-20-550-750-M', ( #138, #164 ), #83 ) ;
#258 = CARTESIAN_POINT ( 'NONE',  ( -0.5000000000000006661, 10.00000000000000000, 0.000000000000000000 ) ) ;
#259 = ORIENTED_EDGE ( 'NONE', *, *, #252, .F. ) ;
#260 = APPLICATION_CONTEXT ( 'configuration controlled 3d designs of mechanical parts and assemblies' ) ;
#261 = CARTESIAN_POINT ( 'NONE',  ( -1.614212418857619014, 0.000000000000000000, 0.000000000000000000 ) ) ;
#262 = DIRECTION ( 'NONE',  ( 0.000000000000000000, 0.000000000000000000, 1.000000000000000000 ) ) ;
#263 = COORDINATED_UNIVERSAL_TIME_OFFSET ( 8, 0, .AHEAD. ) ;
#264 = PLANE ( 'NONE',  #112 ) ;
#265 =( LENGTH_UNIT ( ) NAMED_UNIT ( * ) SI_UNIT ( .MILLI., .METRE. ) );
#266 = EDGE_CURVE ( 'NONE', #34, #222, #208, .T. ) ;
#267 = DATE_AND_TIME ( #247, #284 ) ;
#268 = EDGE_CURVE ( 'NONE', #6, #59, #10, .T. ) ;
#269 = SECURITY_CLASSIFICATION_LEVEL ( 'unclassified' ) ;
#270 = ORIENTED_EDGE ( 'NONE', *, *, #53, .T. ) ;
#271 = PERSON_AND_ORGANIZATION ( #135, #114 ) ;
#272 = CARTESIAN_POINT ( 'NONE',  ( -1.614212418857619014, 0.000000000000000000, 0.000000000000000000 ) ) ;
#273 = VERTEX_POINT ( 'NONE', #299 ) ;
#274 = FACE_OUTER_BOUND ( 'NONE', #87, .T. ) ;
#275 = ORIENTED_EDGE ( 'NONE', *, *, #154, .T. ) ;
#276 = FACE_OUTER_BOUND ( 'NONE', #14, .T. ) ;
#277 = CYLINDRICAL_SURFACE ( 'NONE', #58, 10.00000000000000000 ) ;
#278 = ORIENTED_EDGE ( 'NONE', *, *, #191, .F. ) ;
#279 = DIRECTION ( 'NONE',  ( -1.000000000000000000, -0.000000000000000000, -0.000000000000000000 ) ) ;
#280 = ORIENTED_EDGE ( 'NONE', *, *, #53, .F. ) ;
#281 = CARTESIAN_POINT ( 'NONE',  ( 0.5000000000000013323, 0.000000000000000000, 10.00000000000000000 ) ) ;
#282 = APPROVAL_STATUS ( 'not_yet_approved' ) ;
#283 = EDGE_LOOP ( 'NONE', ( #39, #275, #119, #89 ) ) ;
#284 = LOCAL_TIME ( 10, 35, 33.00000000000000000, #195 ) ;
#285 = DIRECTION ( 'NONE',  ( 1.000000000000000000, 0.000000000000000000, 0.000000000000000000 ) ) ;
#286 = ADVANCED_FACE ( 'NONE', ( #2 ), #236, .T. ) ;
#287 =( NAMED_UNIT ( * ) PLANE_ANGLE_UNIT ( ) SI_UNIT ( $, .RADIAN. ) );
#288 = CIRCLE ( 'NONE', #62, 12.69999999999999929 ) ;
#289 = CIRCLE ( 'NONE', #27, 10.00000000000000000 ) ;
#290 = APPROVAL_DATE_TIME ( #175, #109 ) ;
#291 = CC_DESIGN_APPROVAL ( #11, ( #313 ) ) ;
#292 = CALENDAR_DATE ( 2021, 5, 1 ) ;
#293 = ORIENTED_EDGE ( 'NONE', *, *, #43, .T. ) ;
#294 = EDGE_CURVE ( 'NONE', #273, #51, #162, .T. ) ;
#295 = DIRECTION ( 'NONE',  ( -1.000000000000000000, 0.000000000000000000, -0.000000000000000000 ) ) ;
#296 = ORIENTED_EDGE ( 'NONE', *, *, #43, .F. ) ;
#297 = PERSON_AND_ORGANIZATION ( #135, #114 ) ;
#298 = ADVANCED_FACE ( 'NONE', ( #188 ), #25, .F. ) ;
#299 = CARTESIAN_POINT ( 'NONE',  ( 3.000000000000000000, 1.555301434917138433E-15, -12.69999999999999929 ) ) ;
#300 = LOCAL_TIME ( 10, 35, 33.00000000000000000, #85 ) ;
#301 = CARTESIAN_POINT ( 'NONE',  ( -1.614212418857619014, 0.000000000000000000, 0.000000000000000000 ) ) ;
#302 = EDGE_LOOP ( 'NONE', ( #318, #187 ) ) ;
#303 = DIRECTION ( 'NONE',  ( 0.000000000000000000, 0.000000000000000000, 1.000000000000000000 ) ) ;
#304 = ORIENTED_EDGE ( 'NONE', *, *, #140, .F. ) ;
#305 = DIRECTION ( 'NONE',  ( 1.000000000000000000, 0.000000000000000000, 0.000000000000000000 ) ) ;
#306 = CARTESIAN_POINT ( 'NONE',  ( 2.999999999999999112, 0.000000000000000000, 0.000000000000000000 ) ) ;
#307 = CARTESIAN_POINT ( 'NONE',  ( 2.999999999999999112, 0.000000000000000000, 0.000000000000000000 ) ) ;
#308 = CARTESIAN_POINT ( 'NONE',  ( -3.000000000000000000, 0.000000000000000000, 0.000000000000000000 ) ) ;
#309 = CIRCLE ( 'NONE', #150, 12.69999999999999929 ) ;
#310 = AXIS2_PLACEMENT_3D ( 'NONE', #182, #279, #94 ) ;
#311 = DIRECTION ( 'NONE',  ( -1.000000000000000000, -0.000000000000000000, -0.000000000000000000 ) ) ;
#312 = AXIS2_PLACEMENT_3D ( 'NONE', #272, #180, #196 ) ;
#313 = PRODUCT_DEFINITION_FORMATION_WITH_SPECIFIED_SOURCE ( 'ANY', '', #105, .NOT_KNOWN. ) ;
#314 = CIRCLE ( 'NONE', #212, 10.00000000000000000 ) ;
#315 = APPROVAL_STATUS ( 'not_yet_approved' ) ;
#316 = ADVANCED_FACE ( 'NONE', ( #78 ), #50, .F. ) ;
#317 = COORDINATED_UNIVERSAL_TIME_OFFSET ( 8, 0, .AHEAD. ) ;
#318 = ORIENTED_EDGE ( 'NONE', *, *, #86, .F. ) ;
#319 = DIRECTION ( 'NONE',  ( -1.000000000000000000, -0.000000000000000000, -0.000000000000000000 ) ) ;
#320 = CALENDAR_DATE ( 2021, 5, 1 ) ;
#321 = DIRECTION ( 'NONE',  ( -1.000000000000000000, -0.000000000000000000, -0.000000000000000000 ) ) ;
#322 = EDGE_LOOP ( 'NONE', ( #270, #17, #229, #296 ) ) ;
#323 = CARTESIAN_POINT ( 'NONE',  ( 0.5000000000000006661, 10.00000000000000000, 0.000000000000000000 ) ) ;
#324 = AXIS2_PLACEMENT_3D ( 'NONE', #261, #311, #184 ) ;
#325 = SECURITY_CLASSIFICATION ( '', '', #269 ) ;
#326 = ORIENTED_EDGE ( 'NONE', *, *, #266, .T. ) ;
#327 = DIRECTION ( 'NONE',  ( 0.000000000000000000, 0.000000000000000000, 1.000000000000000000 ) ) ;
#328 = EDGE_LOOP ( 'NONE', ( #92, #153 ) ) ;
#329 = CARTESIAN_POINT ( 'NONE',  ( -3.000000000000000000, 0.000000000000000000, 0.000000000000000000 ) ) ;
#330 = AXIS2_PLACEMENT_3D ( 'NONE', #306, #102, #262 ) ;
#331 = CARTESIAN_POINT ( 'NONE',  ( -1.614212418857619014, 0.000000000000000000, 10.00000000000000000 ) ) ;
#332 = DIRECTION ( 'NONE',  ( -1.000000000000000000, -0.000000000000000000, -0.000000000000000000 ) ) ;
#333 = DIRECTION ( 'NONE',  ( 0.000000000000000000, 0.000000000000000000, 1.000000000000000000 ) ) ;
#334 = CARTESIAN_POINT ( 'NONE',  ( -1.614212418857619014, 0.000000000000000000, 0.000000000000000000 ) ) ;
#335 = DIRECTION ( 'NONE',  ( 1.000000000000000000, 0.000000000000000000, 0.000000000000000000 ) ) ;
ENDSEC;
END-ISO-10303-21;
